ISO-10303-21;
HEADER;
FILE_DESCRIPTION (( 'STEP AP214' ),
    '1' );
FILE_NAME ('tige support.STEP',
    '2015-12-13T16:30:45',
    ( '' ),
    ( '' ),
    'SwSTEP 2.0',
    'SolidWorks 2014',
    '' );
FILE_SCHEMA (( 'AUTOMOTIVE_DESIGN' ));
ENDSEC;

DATA;
#1 = MANIFOLD_SOLID_BREP ( 'Boss.-Extru.1', #43 ) ;
#2 = APPLICATION_PROTOCOL_DEFINITION ( 'draft international standard', 'automotive_design', 1998, #31 ) ;
#3 = DIRECTION ( 'NONE',  ( 1.000000000000000000, 0.0000000000000000000, -0.0000000000000000000 ) ) ;
#4 = FILL_AREA_STYLE ('',( #75 ) ) ;
#5 = AXIS2_PLACEMENT_3D ( 'NONE', #29, #136, #101 ) ;
#6 = VECTOR ( 'NONE', #40, 1000.000000000000000 ) ;
#7 = MECHANICAL_DESIGN_GEOMETRIC_PRESENTATION_REPRESENTATION (  '', ( #104 ), #34 ) ;
#8 = SURFACE_SIDE_STYLE ('',( #91 ) ) ;
#9 = PRESENTATION_LAYER_ASSIGNMENT (  '', '', ( #16 ) ) ;
#10 = CIRCLE ( 'NONE', #57, 1.000000000000000200 ) ;
#11 = SURFACE_SIDE_STYLE ('',( #47 ) ) ;
#12 = APPLICATION_CONTEXT ( 'automotive_design' ) ;
#13 = DIRECTION ( 'NONE',  ( -1.000000000000000000, 0.0000000000000000000, 0.0000000000000000000 ) ) ;
#14 =( NAMED_UNIT ( * ) SI_UNIT ( $, .STERADIAN. ) SOLID_ANGLE_UNIT ( ) );
#15 = FACE_OUTER_BOUND ( 'NONE', #73, .T. ) ;
#16 = STYLED_ITEM ( 'NONE', ( #54 ), #1 ) ;
#17 = COLOUR_RGB ( '',0.7921568627450980000, 0.8196078431372548800, 0.9333333333333333500 ) ;
#18 = EDGE_LOOP ( 'NONE', ( #36, #64, #79, #35 ) ) ;
#19 = AXIS2_PLACEMENT_3D ( 'NONE', #39, #56, #134 ) ;
#20 = EDGE_LOOP ( 'NONE', ( #138, #33 ) ) ;
#21 = ADVANCED_FACE ( 'NONE', ( #114 ), #58, .F. ) ;
#22 = EDGE_CURVE ( 'NONE', #89, #129, #77, .T. ) ;
#23 = FILL_AREA_STYLE ('',( #71 ) ) ;
#24 = SURFACE_STYLE_USAGE ( .BOTH. , #8 ) ;
#25 = CARTESIAN_POINT ( 'NONE',  ( 0.0000000000000000000, 0.0000000000000000000, 85.00000000000000000 ) ) ;
#26 = UNCERTAINTY_MEASURE_WITH_UNIT (LENGTH_MEASURE( 1.000000000000000100E-005 ), #59, 'distance_accuracy_value', 'NONE');
#27 = EDGE_CURVE ( 'NONE', #94, #66, #44, .T. ) ;
#28 = DIRECTION ( 'NONE',  ( -1.000000000000000000, 0.0000000000000000000, 0.0000000000000000000 ) ) ;
#29 = CARTESIAN_POINT ( 'NONE',  ( 0.0000000000000000000, 0.0000000000000000000, 0.0000000000000000000 ) ) ;
#30 = CARTESIAN_POINT ( 'NONE',  ( -1.000000000000000200, 0.0000000000000000000, 85.00000000000000000 ) ) ;
#31 = APPLICATION_CONTEXT ( 'automotive_design' ) ;
#32 = ADVANCED_BREP_SHAPE_REPRESENTATION ( 'tige support', ( #1, #5 ), #48 ) ;
#33 = ORIENTED_EDGE ( 'NONE', *, *, #128, .F. ) ;
#34 =( GEOMETRIC_REPRESENTATION_CONTEXT ( 3 ) GLOBAL_UNCERTAINTY_ASSIGNED_CONTEXT ( ( #70 ) ) GLOBAL_UNIT_ASSIGNED_CONTEXT ( ( #42, #60, #14 ) ) REPRESENTATION_CONTEXT ( 'NONE', 'WORKASPACE' ) );
#35 = ORIENTED_EDGE ( 'NONE', *, *, #123, .F. ) ;
#36 = ORIENTED_EDGE ( 'NONE', *, *, #124, .F. ) ;
#37 = CARTESIAN_POINT ( 'NONE',  ( 0.0000000000000000000, 0.0000000000000000000, 85.00000000000000000 ) ) ;
#38 = AXIS2_PLACEMENT_3D ( 'NONE', #74, #50, #13 ) ;
#39 = CARTESIAN_POINT ( 'NONE',  ( 0.0000000000000000000, 0.0000000000000000000, 0.0000000000000000000 ) ) ;
#40 = DIRECTION ( 'NONE',  ( -0.0000000000000000000, -0.0000000000000000000, -1.000000000000000000 ) ) ;
#41 = CYLINDRICAL_SURFACE ( 'NONE', #38, 1.000000000000000200 ) ;
#42 =( LENGTH_UNIT ( ) NAMED_UNIT ( * ) SI_UNIT ( .MILLI., .METRE. ) );
#43 = CLOSED_SHELL ( 'NONE', ( #92, #80, #81, #21 ) ) ;
#44 = CIRCLE ( 'NONE', #90, 1.000000000000000200 ) ;
#45 = ORIENTED_EDGE ( 'NONE', *, *, #27, .T. ) ;
#46 = UNCERTAINTY_MEASURE_WITH_UNIT (LENGTH_MEASURE( 1.000000000000000100E-005 ), #82, 'distance_accuracy_value', 'NONE');
#47 = SURFACE_STYLE_FILL_AREA ( #4 ) ;
#48 =( GEOMETRIC_REPRESENTATION_CONTEXT ( 3 ) GLOBAL_UNCERTAINTY_ASSIGNED_CONTEXT ( ( #26 ) ) GLOBAL_UNIT_ASSIGNED_CONTEXT ( ( #59, #63, #111 ) ) REPRESENTATION_CONTEXT ( 'NONE', 'WORKASPACE' ) );
#49 = CYLINDRICAL_SURFACE ( 'NONE', #93, 1.000000000000000200 ) ;
#50 = DIRECTION ( 'NONE',  ( -0.0000000000000000000, -0.0000000000000000000, -1.000000000000000000 ) ) ;
#51 = CARTESIAN_POINT ( 'NONE',  ( 1.000000000000000200, 1.224646799147353500E-016, 85.00000000000000000 ) ) ;
#52 = PRODUCT ( 'tige support', 'tige support', '', ( #85 ) ) ;
#53 = CARTESIAN_POINT ( 'NONE',  ( -1.000000000000000200, 0.0000000000000000000, 85.00000000000000000 ) ) ;
#54 = PRESENTATION_STYLE_ASSIGNMENT (( #24 ) ) ;
#55 = CARTESIAN_POINT ( 'NONE',  ( 0.0000000000000000000, 0.0000000000000000000, 85.00000000000000000 ) ) ;
#56 = DIRECTION ( 'NONE',  ( 0.0000000000000000000, 0.0000000000000000000, 1.000000000000000000 ) ) ;
#57 = AXIS2_PLACEMENT_3D ( 'NONE', #76, #98, #120 ) ;
#58 = PLANE ( 'NONE',  #19 ) ;
#59 =( LENGTH_UNIT ( ) NAMED_UNIT ( * ) SI_UNIT ( .MILLI., .METRE. ) );
#60 =( NAMED_UNIT ( * ) PLANE_ANGLE_UNIT ( ) SI_UNIT ( $, .RADIAN. ) );
#61 =( GEOMETRIC_REPRESENTATION_CONTEXT ( 3 ) GLOBAL_UNCERTAINTY_ASSIGNED_CONTEXT ( ( #46 ) ) GLOBAL_UNIT_ASSIGNED_CONTEXT ( ( #82, #117, #106 ) ) REPRESENTATION_CONTEXT ( 'NONE', 'WORKASPACE' ) );
#62 = ORIENTED_EDGE ( 'NONE', *, *, #124, .T. ) ;
#63 =( NAMED_UNIT ( * ) PLANE_ANGLE_UNIT ( ) SI_UNIT ( $, .RADIAN. ) );
#64 = ORIENTED_EDGE ( 'NONE', *, *, #103, .T. ) ;
#65 = VECTOR ( 'NONE', #72, 1000.000000000000000 ) ;
#66 = VERTEX_POINT ( 'NONE', #69 ) ;
#67 = PRODUCT_RELATED_PRODUCT_CATEGORY ( 'part', '', ( #52 ) ) ;
#68 = DIRECTION ( 'NONE',  ( 1.000000000000000000, 0.0000000000000000000, 0.0000000000000000000 ) ) ;
#69 = CARTESIAN_POINT ( 'NONE',  ( 1.000000000000000200, 1.224646799147353500E-016, 0.0000000000000000000 ) ) ;
#70 = UNCERTAINTY_MEASURE_WITH_UNIT (LENGTH_MEASURE( 1.000000000000000100E-005 ), #42, 'distance_accuracy_value', 'NONE');
#71 = FILL_AREA_STYLE_COLOUR ( '', #86 ) ;
#72 = DIRECTION ( 'NONE',  ( -0.0000000000000000000, -0.0000000000000000000, -1.000000000000000000 ) ) ;
#73 = EDGE_LOOP ( 'NONE', ( #84, #62 ) ) ;
#74 = CARTESIAN_POINT ( 'NONE',  ( 0.0000000000000000000, 0.0000000000000000000, 85.00000000000000000 ) ) ;
#75 = FILL_AREA_STYLE_COLOUR ( '', #17 ) ;
#76 = CARTESIAN_POINT ( 'NONE',  ( 0.0000000000000000000, 0.0000000000000000000, 85.00000000000000000 ) ) ;
#77 = CIRCLE ( 'NONE', #131, 1.000000000000000200 ) ;
#78 = FACE_OUTER_BOUND ( 'NONE', #121, .T. ) ;
#79 = ORIENTED_EDGE ( 'NONE', *, *, #128, .T. ) ;
#80 = ADVANCED_FACE ( 'NONE', ( #78 ), #49, .T. ) ;
#81 = ADVANCED_FACE ( 'NONE', ( #15 ), #110, .T. ) ;
#82 =( LENGTH_UNIT ( ) NAMED_UNIT ( * ) SI_UNIT ( .MILLI., .METRE. ) );
#83 = DIRECTION ( 'NONE',  ( -0.0000000000000000000, -0.0000000000000000000, -1.000000000000000000 ) ) ;
#84 = ORIENTED_EDGE ( 'NONE', *, *, #22, .T. ) ;
#85 = PRODUCT_CONTEXT ( 'NONE', #31, 'mechanical' ) ;
#86 = COLOUR_RGB ( '',0.7921568627450980000, 0.8196078431372548800, 0.9333333333333333500 ) ;
#87 = SURFACE_STYLE_USAGE ( .BOTH. , #11 ) ;
#88 = CARTESIAN_POINT ( 'NONE',  ( 0.0000000000000000000, 0.0000000000000000000, 0.0000000000000000000 ) ) ;
#89 = VERTEX_POINT ( 'NONE', #53 ) ;
#90 = AXIS2_PLACEMENT_3D ( 'NONE', #97, #107, #95 ) ;
#91 = SURFACE_STYLE_FILL_AREA ( #23 ) ;
#92 = ADVANCED_FACE ( 'NONE', ( #130 ), #41, .T. ) ;
#93 = AXIS2_PLACEMENT_3D ( 'NONE', #25, #83, #28 ) ;
#94 = VERTEX_POINT ( 'NONE', #112 ) ;
#95 = DIRECTION ( 'NONE',  ( 1.000000000000000000, 0.0000000000000000000, 0.0000000000000000000 ) ) ;
#96 = SHAPE_DEFINITION_REPRESENTATION ( #113, #32 ) ;
#97 = CARTESIAN_POINT ( 'NONE',  ( 0.0000000000000000000, 0.0000000000000000000, 0.0000000000000000000 ) ) ;
#98 = DIRECTION ( 'NONE',  ( 0.0000000000000000000, 0.0000000000000000000, 1.000000000000000000 ) ) ;
#99 = LINE ( 'NONE', #125, #6 ) ;
#100 = DIRECTION ( 'NONE',  ( 0.0000000000000000000, 0.0000000000000000000, 1.000000000000000000 ) ) ;
#101 = DIRECTION ( 'NONE',  ( 1.000000000000000000, 0.0000000000000000000, 0.0000000000000000000 ) ) ;
#102 = LINE ( 'NONE', #30, #65 ) ;
#103 = EDGE_CURVE ( 'NONE', #129, #66, #99, .T. ) ;
#104 = STYLED_ITEM ( 'NONE', ( #108 ), #32 ) ;
#105 = ORIENTED_EDGE ( 'NONE', *, *, #123, .T. ) ;
#106 =( NAMED_UNIT ( * ) SI_UNIT ( $, .STERADIAN. ) SOLID_ANGLE_UNIT ( ) );
#107 = DIRECTION ( 'NONE',  ( 0.0000000000000000000, 0.0000000000000000000, 1.000000000000000000 ) ) ;
#108 = PRESENTATION_STYLE_ASSIGNMENT (( #87 ) ) ;
#109 = AXIS2_PLACEMENT_3D ( 'NONE', #88, #100, #122 ) ;
#110 = PLANE ( 'NONE',  #133 ) ;
#111 =( NAMED_UNIT ( * ) SI_UNIT ( $, .STERADIAN. ) SOLID_ANGLE_UNIT ( ) );
#112 = CARTESIAN_POINT ( 'NONE',  ( -1.000000000000000200, 0.0000000000000000000, 0.0000000000000000000 ) ) ;
#113 = PRODUCT_DEFINITION_SHAPE ( 'NONE', 'NONE',  #119 ) ;
#114 = FACE_OUTER_BOUND ( 'NONE', #20, .T. ) ;
#115 = PRESENTATION_LAYER_ASSIGNMENT (  '', '', ( #104 ) ) ;
#116 = DIRECTION ( 'NONE',  ( 0.0000000000000000000, 0.0000000000000000000, 1.000000000000000000 ) ) ;
#117 =( NAMED_UNIT ( * ) PLANE_ANGLE_UNIT ( ) SI_UNIT ( $, .RADIAN. ) );
#118 = CIRCLE ( 'NONE', #109, 1.000000000000000200 ) ;
#119 = PRODUCT_DEFINITION ( 'UNKNOWN', '', #135, #126 ) ;
#120 = DIRECTION ( 'NONE',  ( 1.000000000000000000, 0.0000000000000000000, 0.0000000000000000000 ) ) ;
#121 = EDGE_LOOP ( 'NONE', ( #127, #140, #105, #45 ) ) ;
#122 = DIRECTION ( 'NONE',  ( 1.000000000000000000, 0.0000000000000000000, 0.0000000000000000000 ) ) ;
#123 = EDGE_CURVE ( 'NONE', #89, #94, #102, .T. ) ;
#124 = EDGE_CURVE ( 'NONE', #129, #89, #10, .T. ) ;
#125 = CARTESIAN_POINT ( 'NONE',  ( 1.000000000000000200, 1.224646799147353500E-016, 85.00000000000000000 ) ) ;
#126 = PRODUCT_DEFINITION_CONTEXT ( 'detailed design', #12, 'design' ) ;
#127 = ORIENTED_EDGE ( 'NONE', *, *, #103, .F. ) ;
#128 = EDGE_CURVE ( 'NONE', #66, #94, #118, .T. ) ;
#129 = VERTEX_POINT ( 'NONE', #51 ) ;
#130 = FACE_OUTER_BOUND ( 'NONE', #18, .T. ) ;
#131 = AXIS2_PLACEMENT_3D ( 'NONE', #55, #132, #68 ) ;
#132 = DIRECTION ( 'NONE',  ( 0.0000000000000000000, 0.0000000000000000000, 1.000000000000000000 ) ) ;
#133 = AXIS2_PLACEMENT_3D ( 'NONE', #37, #116, #3 ) ;
#134 = DIRECTION ( 'NONE',  ( 1.000000000000000000, 0.0000000000000000000, -0.0000000000000000000 ) ) ;
#135 = PRODUCT_DEFINITION_FORMATION_WITH_SPECIFIED_SOURCE ( 'ANY', '', #52, .NOT_KNOWN. ) ;
#136 = DIRECTION ( 'NONE',  ( 0.0000000000000000000, 0.0000000000000000000, 1.000000000000000000 ) ) ;
#137 = APPLICATION_PROTOCOL_DEFINITION ( 'draft international standard', 'automotive_design', 1998, #12 ) ;
#138 = ORIENTED_EDGE ( 'NONE', *, *, #27, .F. ) ;
#139 = MECHANICAL_DESIGN_GEOMETRIC_PRESENTATION_REPRESENTATION (  '', ( #16 ), #61 ) ;
#140 = ORIENTED_EDGE ( 'NONE', *, *, #22, .F. ) ;
ENDSEC;
END-ISO-10303-21;
